ISO-10303-21;
HEADER;
FILE_DESCRIPTION (( 'STEP AP203' ),
    '1' );
FILE_NAME ('Q-OZHWP-R2-20-1550-M.STEP',
    '2020-12-22T09:15:44',
    ( '' ),
    ( '' ),
    'SwSTEP 2.0',
    'SolidWorks 2020',
    '' );
FILE_SCHEMA (( 'CONFIG_CONTROL_DESIGN' ));
ENDSEC;

DATA;
#1 = DIRECTION ( 'NONE',  ( -1.000000000000000000, -0.000000000000000000, -0.000000000000000000 ) ) ;
#2 = FACE_OUTER_BOUND ( 'NONE', #228, .T. ) ;
#3 = CARTESIAN_POINT ( 'NONE',  ( -2.500000000000000444, 0.000000000000000000, 10.00000000000000000 ) ) ;
#4 = CYLINDRICAL_SURFACE ( 'NONE', #158, 12.69999999999999929 ) ;
#5 = PERSON_AND_ORGANIZATION ( #156, #276 ) ;
#6 = EDGE_CURVE ( 'NONE', #302, #306, #67, .T. ) ;
#7 = DIRECTION ( 'NONE',  ( 0.000000000000000000, 0.000000000000000000, -1.000000000000000000 ) ) ;
#8 = AXIS2_PLACEMENT_3D ( 'NONE', #294, #116, #7 ) ;
#9 = FACE_OUTER_BOUND ( 'NONE', #155, .T. ) ;
#10 = FACE_BOUND ( 'NONE', #68, .T. ) ;
#11 = ADVANCED_FACE ( 'NONE', ( #42 ), #136, .F. ) ;
#12 = PLANE ( 'NONE',  #303 ) ;
#13 = VECTOR ( 'NONE', #71, 1000.000000000000000 ) ;
#14 = EDGE_CURVE ( 'NONE', #312, #211, #287, .T. ) ;
#15 = VERTEX_POINT ( 'NONE', #126 ) ;
#16 = AXIS2_PLACEMENT_3D ( 'NONE', #22, #105, #213 ) ;
#17 = EDGE_LOOP ( 'NONE', ( #281, #26, #280, #301 ) ) ;
#18 = VERTEX_POINT ( 'NONE', #159 ) ;
#19 = DIRECTION ( 'NONE',  ( -0.000000000000000000, 0.000000000000000000, 1.000000000000000000 ) ) ;
#20 = EDGE_LOOP ( 'NONE', ( #327, #101 ) ) ;
#21 = CARTESIAN_POINT ( 'NONE',  ( -3.000000000000000000, 0.000000000000000000, 0.000000000000000000 ) ) ;
#22 = CARTESIAN_POINT ( 'NONE',  ( -3.000000000000000000, 0.000000000000000000, 0.000000000000000000 ) ) ;
#23 = EDGE_LOOP ( 'NONE', ( #232, #261, #154, #163 ) ) ;
#24 = CC_DESIGN_PERSON_AND_ORGANIZATION_ASSIGNMENT ( #175, #274, ( #103 ) ) ;
#25 = CALENDAR_DATE ( 2020, 22, 12 ) ;
#26 = ORIENTED_EDGE ( 'NONE', *, *, #305, .F. ) ;
#27 = CARTESIAN_POINT ( 'NONE',  ( -1.614212418857619014, 0.000000000000000000, 0.000000000000000000 ) ) ;
#28 = PLANE ( 'NONE',  #235 ) ;
#29 = CIRCLE ( 'NONE', #38, 10.00000000000000000 ) ;
#30 = CARTESIAN_POINT ( 'NONE',  ( 2.999999999999999112, 0.000000000000000000, 10.00000000000000000 ) ) ;
#31 = DATE_AND_TIME ( #142, #318 ) ;
#32 = DIRECTION ( 'NONE',  ( -1.000000000000000000, -0.000000000000000000, -0.000000000000000000 ) ) ;
#33 = APPROVAL_PERSON_ORGANIZATION ( #310, #208, #76 ) ;
#34 = APPLICATION_CONTEXT ( 'configuration controlled 3d designs of mechanical parts and assemblies' ) ;
#35 = PERSON_AND_ORGANIZATION_ROLE ( 'creator' ) ;
#36 = DIRECTION ( 'NONE',  ( 0.000000000000000000, 0.000000000000000000, 1.000000000000000000 ) ) ;
#37 = APPLICATION_PROTOCOL_DEFINITION ( 'international standard', 'config_control_design', 1994, #177 ) ;
#38 = AXIS2_PLACEMENT_3D ( 'NONE', #86, #195, #79 ) ;
#39 = EDGE_CURVE ( 'NONE', #45, #160, #52, .T. ) ;
#40 = ORIENTED_EDGE ( 'NONE', *, *, #118, .F. ) ;
#41 = ADVANCED_FACE ( 'NONE', ( #217 ), #334, .F. ) ;
#42 = FACE_OUTER_BOUND ( 'NONE', #333, .T. ) ;
#43 = ORIENTED_EDGE ( 'NONE', *, *, #164, .F. ) ;
#44 = CC_DESIGN_PERSON_AND_ORGANIZATION_ASSIGNMENT ( #335, #216, ( #70 ) ) ;
#45 = VERTEX_POINT ( 'NONE', #260 ) ;
#46 = CARTESIAN_POINT ( 'NONE',  ( -2.500000000000000444, 10.00000000000000000, 0.000000000000000000 ) ) ;
#47 = COORDINATED_UNIVERSAL_TIME_OFFSET ( 8, 0, .AHEAD. ) ;
#48 = AXIS2_PLACEMENT_3D ( 'NONE', #270, #319, #173 ) ;
#49 = DIRECTION ( 'NONE',  ( -1.000000000000000000, -0.000000000000000000, -0.000000000000000000 ) ) ;
#50 = CARTESIAN_POINT ( 'NONE',  ( -1.614212418857619014, 1.555301434917138433E-15, -12.69999999999999929 ) ) ;
#51 = DIRECTION ( 'NONE',  ( 0.000000000000000000, 0.000000000000000000, 1.000000000000000000 ) ) ;
#52 = CIRCLE ( 'NONE', #317, 10.00000000000000000 ) ;
#53 = CYLINDRICAL_SURFACE ( 'NONE', #139, 10.00000000000000000 ) ;
#54 = CC_DESIGN_APPROVAL ( #208, ( #60 ) ) ;
#55 = EDGE_CURVE ( 'NONE', #211, #279, #152, .T. ) ;
#56 = CARTESIAN_POINT ( 'NONE',  ( 2.500000000000000888, 0.000000000000000000, 10.00000000000000000 ) ) ;
#57 = SECURITY_CLASSIFICATION_LEVEL ( 'unclassified' ) ;
#58 = CARTESIAN_POINT ( 'NONE',  ( -1.614212418857619014, 0.000000000000000000, 0.000000000000000000 ) ) ;
#59 = LINE ( 'NONE', #265, #176 ) ;
#60 = PRODUCT_DEFINITION_FORMATION_WITH_SPECIFIED_SOURCE ( 'ANY', '', #185, .NOT_KNOWN. ) ;
#61 = APPROVAL ( #223, 'UNSPECIFIED' ) ;
#62 =( NAMED_UNIT ( * ) PLANE_ANGLE_UNIT ( ) SI_UNIT ( $, .RADIAN. ) );
#63 = EDGE_CURVE ( 'NONE', #130, #306, #174, .T. ) ;
#64 = DIRECTION ( 'NONE',  ( 0.000000000000000000, 0.000000000000000000, 1.000000000000000000 ) ) ;
#65 = EDGE_CURVE ( 'NONE', #160, #45, #316, .T. ) ;
#66 = ORIENTED_EDGE ( 'NONE', *, *, #14, .F. ) ;
#67 = LINE ( 'NONE', #50, #13 ) ;
#68 = EDGE_LOOP ( 'NONE', ( #124, #283 ) ) ;
#69 = VECTOR ( 'NONE', #296, 1000.000000000000000 ) ;
#70 = PRODUCT_DEFINITION ( 'UNKNOWN', '', #60, #244 ) ;
#71 = DIRECTION ( 'NONE',  ( -1.000000000000000000, -0.000000000000000000, -0.000000000000000000 ) ) ;
#72 = ORIENTED_EDGE ( 'NONE', *, *, #299, .T. ) ;
#73 = DATE_AND_TIME ( #107, #252 ) ;
#74 = APPROVAL_ROLE ( '' ) ;
#75 = CARTESIAN_POINT ( 'NONE',  ( -1.614212418857619014, 1.224646799147353256E-15, -10.00000000000000000 ) ) ;
#76 = APPROVAL_ROLE ( '' ) ;
#77 = VECTOR ( 'NONE', #237, 1000.000000000000000 ) ;
#78 = APPROVAL_PERSON_ORGANIZATION ( #295, #61, #249 ) ;
#79 = DIRECTION ( 'NONE',  ( 0.000000000000000000, 0.000000000000000000, 1.000000000000000000 ) ) ;
#80 = EDGE_CURVE ( 'NONE', #18, #45, #308, .T. ) ;
#81 = DIRECTION ( 'NONE',  ( 0.000000000000000000, 0.000000000000000000, -1.000000000000000000 ) ) ;
#82 = SHAPE_DEFINITION_REPRESENTATION ( #127, #251 ) ;
#83 = CC_DESIGN_PERSON_AND_ORGANIZATION_ASSIGNMENT ( #243, #35, ( #60 ) ) ;
#84 = DIRECTION ( 'NONE',  ( 0.000000000000000000, 0.000000000000000000, 1.000000000000000000 ) ) ;
#85 = LOCAL_TIME ( 17, 15, 44.00000000000000000, #191 ) ;
#86 = CARTESIAN_POINT ( 'NONE',  ( -3.000000000000000444, 0.000000000000000000, 0.000000000000000000 ) ) ;
#87 = DATE_AND_TIME ( #148, #218 ) ;
#88 = MANIFOLD_SOLID_BREP ( 'Ðý×', #226 ) ;
#89 = DIRECTION ( 'NONE',  ( -1.000000000000000000, -0.000000000000000000, -0.000000000000000000 ) ) ;
#90 = DATE_AND_TIME ( #321, #85 ) ;
#91 = CARTESIAN_POINT ( 'NONE',  ( 2.999999999999999112, 0.000000000000000000, 0.000000000000000000 ) ) ;
#92 = CIRCLE ( 'NONE', #8, 10.00000000000000000 ) ;
#93 = PERSON_AND_ORGANIZATION ( #156, #276 ) ;
#94 = ORIENTED_EDGE ( 'NONE', *, *, #150, .F. ) ;
#95 = DIRECTION ( 'NONE',  ( 0.000000000000000000, 0.000000000000000000, 1.000000000000000000 ) ) ;
#96 = CIRCLE ( 'NONE', #285, 10.00000000000000000 ) ;
#97 = ORIENTED_EDGE ( 'NONE', *, *, #122, .T. ) ;
#98 = EDGE_CURVE ( 'NONE', #302, #15, #298, .T. ) ;
#99 = DIRECTION ( 'NONE',  ( -1.000000000000000000, -0.000000000000000000, -0.000000000000000000 ) ) ;
#100 = ORIENTED_EDGE ( 'NONE', *, *, #330, .T. ) ;
#101 = ORIENTED_EDGE ( 'NONE', *, *, #288, .T. ) ;
#102 = AXIS2_PLACEMENT_3D ( 'NONE', #46, #209, #229 ) ;
#103 = SECURITY_CLASSIFICATION ( '', '', #57 ) ;
#104 = DIRECTION ( 'NONE',  ( 0.000000000000000000, 0.000000000000000000, -1.000000000000000000 ) ) ;
#105 = DIRECTION ( 'NONE',  ( -1.000000000000000000, -0.000000000000000000, -0.000000000000000000 ) ) ;
#106 = EDGE_LOOP ( 'NONE', ( #129, #255, #132, #40 ) ) ;
#107 = CALENDAR_DATE ( 2020, 22, 12 ) ;
#108 = DIRECTION ( 'NONE',  ( 0.000000000000000000, 0.000000000000000000, 1.000000000000000000 ) ) ;
#109 = DATE_TIME_ROLE ( 'creation_date' ) ;
#110 = ADVANCED_FACE ( 'NONE', ( #198 ), #219, .F. ) ;
#111 = AXIS2_PLACEMENT_3D ( 'NONE', #328, #99, #108 ) ;
#112 = DIRECTION ( 'NONE',  ( -1.000000000000000000, -0.000000000000000000, -0.000000000000000000 ) ) ;
#113 = DIRECTION ( 'NONE',  ( -0.000000000000000000, 0.000000000000000000, 1.000000000000000000 ) ) ;
#114 = CARTESIAN_POINT ( 'NONE',  ( -1.614212418857619014, 0.000000000000000000, 0.000000000000000000 ) ) ;
#115 = VECTOR ( 'NONE', #189, 1000.000000000000000 ) ;
#116 = DIRECTION ( 'NONE',  ( 1.000000000000000000, 0.000000000000000000, 0.000000000000000000 ) ) ;
#117 = DIRECTION ( 'NONE',  ( 0.000000000000000000, 0.000000000000000000, 1.000000000000000000 ) ) ;
#118 = EDGE_CURVE ( 'NONE', #15, #130, #247, .T. ) ;
#119 = DIRECTION ( 'NONE',  ( 1.000000000000000000, 0.000000000000000000, 0.000000000000000000 ) ) ;
#120 = APPLICATION_PROTOCOL_DEFINITION ( 'international standard', 'config_control_design', 1994, #34 ) ;
#121 = AXIS2_PLACEMENT_3D ( 'NONE', #241, #144, #81 ) ;
#122 = EDGE_CURVE ( 'NONE', #207, #312, #92, .T. ) ;
#123 = LINE ( 'NONE', #322, #69 ) ;
#124 = ORIENTED_EDGE ( 'NONE', *, *, #135, .F. ) ;
#125 = CC_DESIGN_SECURITY_CLASSIFICATION ( #103, ( #60 ) ) ;
#126 = CARTESIAN_POINT ( 'NONE',  ( 3.000000000000000000, 0.000000000000000000, 12.69999999999999929 ) ) ;
#127 = PRODUCT_DEFINITION_SHAPE ( 'NONE', 'NONE',  #70 ) ;
#128 = CC_DESIGN_DATE_AND_TIME_ASSIGNMENT ( #87, #199, ( #103 ) ) ;
#129 = ORIENTED_EDGE ( 'NONE', *, *, #164, .T. ) ;
#130 = VERTEX_POINT ( 'NONE', #293 ) ;
#131 =( LENGTH_UNIT ( ) NAMED_UNIT ( * ) SI_UNIT ( .MILLI., .METRE. ) );
#132 = ORIENTED_EDGE ( 'NONE', *, *, #63, .F. ) ;
#133 = ORIENTED_EDGE ( 'NONE', *, *, #14, .T. ) ;
#134 = ADVANCED_FACE ( 'NONE', ( #222 ), #224, .T. ) ;
#135 = EDGE_CURVE ( 'NONE', #279, #211, #29, .T. ) ;
#136 = PLANE ( 'NONE',  #102 ) ;
#137 = DIRECTION ( 'NONE',  ( 0.000000000000000000, 0.000000000000000000, 1.000000000000000000 ) ) ;
#138 = ADVANCED_FACE ( 'NONE', ( #9 ), #194, .F. ) ;
#139 = AXIS2_PLACEMENT_3D ( 'NONE', #245, #289, #51 ) ;
#140 = DIRECTION ( 'NONE',  ( -1.000000000000000000, 0.000000000000000000, -0.000000000000000000 ) ) ;
#141 = PRODUCT_RELATED_PRODUCT_CATEGORY ( 'detail', '', ( #185 ) ) ;
#142 = CALENDAR_DATE ( 2020, 22, 12 ) ;
#143 = CYLINDRICAL_SURFACE ( 'NONE', #269, 10.00000000000000000 ) ;
#144 = DIRECTION ( 'NONE',  ( 1.000000000000000000, 0.000000000000000000, 0.000000000000000000 ) ) ;
#145 = APPROVAL_DATE_TIME ( #31, #61 ) ;
#146 = CIRCLE ( 'NONE', #227, 10.00000000000000000 ) ;
#147 = PERSON_AND_ORGANIZATION_ROLE ( 'design_supplier' ) ;
#148 = CALENDAR_DATE ( 2020, 22, 12 ) ;
#149 = DIRECTION ( 'NONE',  ( 1.000000000000000000, 0.000000000000000000, 0.000000000000000000 ) ) ;
#150 = EDGE_CURVE ( 'NONE', #230, #160, #59, .T. ) ;
#151 = PERSON_AND_ORGANIZATION ( #156, #276 ) ;
#152 = CIRCLE ( 'NONE', #196, 10.00000000000000000 ) ;
#153 = CC_DESIGN_APPROVAL ( #309, ( #70 ) ) ;
#154 = ORIENTED_EDGE ( 'NONE', *, *, #118, .T. ) ;
#155 = EDGE_LOOP ( 'NONE', ( #66, #210, #100, #307 ) ) ;
#156 = PERSON ( 'UNSPECIFIED', 'UNSPECIFIED', 'UNSPECIFIED', ('UNSPECIFIED'), ('UNSPECIFIED'), ('UNSPECIFIED') ) ;
#157 = EDGE_LOOP ( 'NONE', ( #233, #162 ) ) ;
#158 = AXIS2_PLACEMENT_3D ( 'NONE', #114, #221, #84 ) ;
#159 = CARTESIAN_POINT ( 'NONE',  ( 2.999999999999999112, 1.224646799147353256E-15, -10.00000000000000000 ) ) ;
#160 = VERTEX_POINT ( 'NONE', #56 ) ;
#161 = CARTESIAN_POINT ( 'NONE',  ( -2.500000000000000444, 1.224646799147353256E-15, -10.00000000000000000 ) ) ;
#162 = ORIENTED_EDGE ( 'NONE', *, *, #39, .F. ) ;
#163 = ORIENTED_EDGE ( 'NONE', *, *, #299, .F. ) ;
#164 = EDGE_CURVE ( 'NONE', #15, #302, #240, .T. ) ;
#165 = APPROVAL_STATUS ( 'not_yet_approved' ) ;
#166 = DIRECTION ( 'NONE',  ( 0.000000000000000000, 0.000000000000000000, 1.000000000000000000 ) ) ;
#167 = VECTOR ( 'NONE', #112, 1000.000000000000000 ) ;
#168 = DIRECTION ( 'NONE',  ( 0.000000000000000000, 0.000000000000000000, 1.000000000000000000 ) ) ;
#169 = CARTESIAN_POINT ( 'NONE',  ( -3.000000000000000444, 0.000000000000000000, 0.000000000000000000 ) ) ;
#170 = DIRECTION ( 'NONE',  ( -1.000000000000000000, -0.000000000000000000, -0.000000000000000000 ) ) ;
#171 = FACE_OUTER_BOUND ( 'NONE', #17, .T. ) ;
#172 = CARTESIAN_POINT ( 'NONE',  ( -1.614212418857619014, 0.000000000000000000, 0.000000000000000000 ) ) ;
#173 = DIRECTION ( 'NONE',  ( 0.000000000000000000, 0.000000000000000000, 1.000000000000000000 ) ) ;
#174 = CIRCLE ( 'NONE', #16, 12.69999999999999929 ) ;
#175 = PERSON_AND_ORGANIZATION ( #156, #276 ) ;
#176 = VECTOR ( 'NONE', #290, 1000.000000000000000 ) ;
#177 = APPLICATION_CONTEXT ( 'configuration controlled 3d designs of mechanical parts and assemblies' ) ;
#178 =( NAMED_UNIT ( * ) SI_UNIT ( $, .STERADIAN. ) SOLID_ANGLE_UNIT ( ) );
#179 = ADVANCED_FACE ( 'NONE', ( #171 ), #143, .F. ) ;
#180 = CC_DESIGN_APPROVAL ( #61, ( #103 ) ) ;
#181 = DIRECTION ( 'NONE',  ( 0.000000000000000000, 0.000000000000000000, 1.000000000000000000 ) ) ;
#182 = ORIENTED_EDGE ( 'NONE', *, *, #98, .F. ) ;
#183 = ORIENTED_EDGE ( 'NONE', *, *, #288, .F. ) ;
#184 = CIRCLE ( 'NONE', #257, 12.69999999999999929 ) ;
#185 = PRODUCT ( 'Q-OZHWP-R2-20-1550-M', 'Q-OZHWP-R2-20-1550-M', '', ( #325 ) ) ;
#186 = ORIENTED_EDGE ( 'NONE', *, *, #80, .T. ) ;
#187 = EDGE_LOOP ( 'NONE', ( #329, #72 ) ) ;
#188 = CC_DESIGN_PERSON_AND_ORGANIZATION_ASSIGNMENT ( #93, #275, ( #185 ) ) ;
#189 = DIRECTION ( 'NONE',  ( -1.000000000000000000, -0.000000000000000000, -0.000000000000000000 ) ) ;
#190 =( GEOMETRIC_REPRESENTATION_CONTEXT ( 3 ) GLOBAL_UNCERTAINTY_ASSIGNED_CONTEXT ( ( #266 ) ) GLOBAL_UNIT_ASSIGNED_CONTEXT ( ( #131, #62, #178 ) ) REPRESENTATION_CONTEXT ( 'NONE', 'WORKASPACE' ) );
#191 = COORDINATED_UNIVERSAL_TIME_OFFSET ( 8, 0, .AHEAD. ) ;
#192 = ORIENTED_EDGE ( 'NONE', *, *, #122, .F. ) ;
#193 = CC_DESIGN_DATE_AND_TIME_ASSIGNMENT ( #262, #109, ( #70 ) ) ;
#194 = CYLINDRICAL_SURFACE ( 'NONE', #246, 10.00000000000000000 ) ;
#195 = DIRECTION ( 'NONE',  ( -1.000000000000000000, -0.000000000000000000, -0.000000000000000000 ) ) ;
#196 = AXIS2_PLACEMENT_3D ( 'NONE', #169, #1, #215 ) ;
#197 = CARTESIAN_POINT ( 'NONE',  ( -3.000000000000000444, 0.000000000000000000, 10.00000000000000000 ) ) ;
#198 = FACE_OUTER_BOUND ( 'NONE', #304, .T. ) ;
#199 = DATE_TIME_ROLE ( 'classification_date' ) ;
#200 = DIRECTION ( 'NONE',  ( 0.000000000000000000, 0.000000000000000000, 1.000000000000000000 ) ) ;
#201 = APPROVAL_DATE_TIME ( #90, #208 ) ;
#202 = AXIS2_PLACEMENT_3D ( 'NONE', #292, #32, #117 ) ;
#203 = CARTESIAN_POINT ( 'NONE',  ( -3.000000000000000000, 1.555301434917138433E-15, -12.69999999999999929 ) ) ;
#204 = CARTESIAN_POINT ( 'NONE',  ( -3.000000000000000000, 10.00000000000000000, 0.000000000000000000 ) ) ;
#205 = FACE_OUTER_BOUND ( 'NONE', #187, .T. ) ;
#206 = AXIS2_PLACEMENT_3D ( 'NONE', #284, #49, #168 ) ;
#207 = VERTEX_POINT ( 'NONE', #3 ) ;
#208 = APPROVAL ( #236, 'UNSPECIFIED' ) ;
#209 = DIRECTION ( 'NONE',  ( 1.000000000000000000, 0.000000000000000000, 0.000000000000000000 ) ) ;
#210 = ORIENTED_EDGE ( 'NONE', *, *, #268, .T. ) ;
#211 = VERTEX_POINT ( 'NONE', #239 ) ;
#212 = APPROVAL_PERSON_ORGANIZATION ( #151, #309, #74 ) ;
#213 = DIRECTION ( 'NONE',  ( 0.000000000000000000, 0.000000000000000000, 1.000000000000000000 ) ) ;
#214 = ORIENTED_EDGE ( 'NONE', *, *, #330, .F. ) ;
#215 = DIRECTION ( 'NONE',  ( 0.000000000000000000, 0.000000000000000000, 1.000000000000000000 ) ) ;
#216 = PERSON_AND_ORGANIZATION_ROLE ( 'creator' ) ;
#217 = FACE_OUTER_BOUND ( 'NONE', #157, .T. ) ;
#218 = LOCAL_TIME ( 17, 15, 44.00000000000000000, #248 ) ;
#219 = CYLINDRICAL_SURFACE ( 'NONE', #202, 10.00000000000000000 ) ;
#220 = CARTESIAN_POINT ( 'NONE',  ( 2.999999999999999112, 12.69999999999999929, 0.000000000000000000 ) ) ;
#221 = DIRECTION ( 'NONE',  ( -1.000000000000000000, -0.000000000000000000, -0.000000000000000000 ) ) ;
#222 = FACE_OUTER_BOUND ( 'NONE', #23, .T. ) ;
#223 = APPROVAL_STATUS ( 'not_yet_approved' ) ;
#224 = CYLINDRICAL_SURFACE ( 'NONE', #331, 12.69999999999999929 ) ;
#225 = DIRECTION ( 'NONE',  ( -1.000000000000000000, -0.000000000000000000, -0.000000000000000000 ) ) ;
#226 = CLOSED_SHELL ( 'NONE', ( #278, #231, #110, #41, #179, #138, #324, #134, #242, #11 ) ) ;
#227 = AXIS2_PLACEMENT_3D ( 'NONE', #91, #297, #181 ) ;
#228 = EDGE_LOOP ( 'NONE', ( #97, #133, #259, #214 ) ) ;
#229 = DIRECTION ( 'NONE',  ( 0.000000000000000000, 0.000000000000000000, -1.000000000000000000 ) ) ;
#230 = VERTEX_POINT ( 'NONE', #30 ) ;
#231 = ADVANCED_FACE ( 'NONE', ( #2 ), #53, .F. ) ;
#232 = ORIENTED_EDGE ( 'NONE', *, *, #6, .F. ) ;
#233 = ORIENTED_EDGE ( 'NONE', *, *, #65, .F. ) ;
#234 = CC_DESIGN_PERSON_AND_ORGANIZATION_ASSIGNMENT ( #5, #147, ( #60 ) ) ;
#235 = AXIS2_PLACEMENT_3D ( 'NONE', #220, #140, #113 ) ;
#236 = APPROVAL_STATUS ( 'not_yet_approved' ) ;
#237 = DIRECTION ( 'NONE',  ( -1.000000000000000000, -0.000000000000000000, -0.000000000000000000 ) ) ;
#238 = CARTESIAN_POINT ( 'NONE',  ( 2.500000000000000888, 0.000000000000000000, 0.000000000000000000 ) ) ;
#239 = CARTESIAN_POINT ( 'NONE',  ( -3.000000000000000444, 1.224646799147353256E-15, -10.00000000000000000 ) ) ;
#240 = CIRCLE ( 'NONE', #48, 12.69999999999999929 ) ;
#241 = CARTESIAN_POINT ( 'NONE',  ( -2.500000000000000444, 0.000000000000000000, 0.000000000000000000 ) ) ;
#242 = ADVANCED_FACE ( 'NONE', ( #267, #271 ), #28, .F. ) ;
#243 = PERSON_AND_ORGANIZATION ( #156, #276 ) ;
#244 = DESIGN_CONTEXT ( 'detailed design', #177, 'design' ) ;
#245 = CARTESIAN_POINT ( 'NONE',  ( -1.614212418857619014, 0.000000000000000000, 0.000000000000000000 ) ) ;
#246 = AXIS2_PLACEMENT_3D ( 'NONE', #58, #89, #200 ) ;
#247 = LINE ( 'NONE', #272, #167 ) ;
#248 = COORDINATED_UNIVERSAL_TIME_OFFSET ( 8, 0, .AHEAD. ) ;
#249 = APPROVAL_ROLE ( '' ) ;
#250 = CARTESIAN_POINT ( 'NONE',  ( 0.000000000000000000, 0.000000000000000000, 0.000000000000000000 ) ) ;
#251 = ADVANCED_BREP_SHAPE_REPRESENTATION ( 'Q-OZHWP-R2-20-1550-M', ( #88, #291 ), #190 ) ;
#252 = LOCAL_TIME ( 17, 15, 44.00000000000000000, #286 ) ;
#253 = DIRECTION ( 'NONE',  ( -1.000000000000000000, -0.000000000000000000, -0.000000000000000000 ) ) ;
#254 = CARTESIAN_POINT ( 'NONE',  ( 2.999999999999999112, 0.000000000000000000, 0.000000000000000000 ) ) ;
#255 = ORIENTED_EDGE ( 'NONE', *, *, #6, .T. ) ;
#256 = ORIENTED_EDGE ( 'NONE', *, *, #268, .F. ) ;
#257 = AXIS2_PLACEMENT_3D ( 'NONE', #21, #225, #64 ) ;
#258 = DIRECTION ( 'NONE',  ( -1.000000000000000000, 0.000000000000000000, -0.000000000000000000 ) ) ;
#259 = ORIENTED_EDGE ( 'NONE', *, *, #55, .T. ) ;
#260 = CARTESIAN_POINT ( 'NONE',  ( 2.500000000000000888, 1.224646799147353256E-15, -10.00000000000000000 ) ) ;
#261 = ORIENTED_EDGE ( 'NONE', *, *, #98, .T. ) ;
#262 = DATE_AND_TIME ( #25, #273 ) ;
#263 = CARTESIAN_POINT ( 'NONE',  ( -1.614212418857619014, 1.224646799147353256E-15, -10.00000000000000000 ) ) ;
#264 = CARTESIAN_POINT ( 'NONE',  ( 2.500000000000000444, 10.00000000000000000, 0.000000000000000000 ) ) ;
#265 = CARTESIAN_POINT ( 'NONE',  ( -1.614212418857619014, 0.000000000000000000, 10.00000000000000000 ) ) ;
#266 = UNCERTAINTY_MEASURE_WITH_UNIT (LENGTH_MEASURE( 1.000000000000000082E-05 ), #131, 'distance_accuracy_value', 'NONE');
#267 = FACE_OUTER_BOUND ( 'NONE', #300, .T. ) ;
#268 = EDGE_CURVE ( 'NONE', #312, #207, #323, .T. ) ;
#269 = AXIS2_PLACEMENT_3D ( 'NONE', #27, #170, #137 ) ;
#270 = CARTESIAN_POINT ( 'NONE',  ( 3.000000000000000000, 0.000000000000000000, 0.000000000000000000 ) ) ;
#271 = FACE_BOUND ( 'NONE', #20, .T. ) ;
#272 = CARTESIAN_POINT ( 'NONE',  ( -1.614212418857619014, 0.000000000000000000, 12.69999999999999929 ) ) ;
#273 = LOCAL_TIME ( 17, 15, 44.00000000000000000, #47 ) ;
#274 = PERSON_AND_ORGANIZATION_ROLE ( 'classification_officer' ) ;
#275 = PERSON_AND_ORGANIZATION_ROLE ( 'design_owner' ) ;
#276 = ORGANIZATION ( 'UNSPECIFIED', 'UNSPECIFIED', '' ) ;
#277 = CARTESIAN_POINT ( 'NONE',  ( 3.000000000000000000, 1.555301434917138433E-15, -12.69999999999999929 ) ) ;
#278 = ADVANCED_FACE ( 'NONE', ( #315 ), #4, .T. ) ;
#279 = VERTEX_POINT ( 'NONE', #197 ) ;
#280 = ORIENTED_EDGE ( 'NONE', *, *, #150, .T. ) ;
#281 = ORIENTED_EDGE ( 'NONE', *, *, #80, .F. ) ;
#282 = APPROVAL_DATE_TIME ( #73, #309 ) ;
#283 = ORIENTED_EDGE ( 'NONE', *, *, #55, .F. ) ;
#284 = CARTESIAN_POINT ( 'NONE',  ( 3.000000000000000000, 0.000000000000000000, 0.000000000000000000 ) ) ;
#285 = AXIS2_PLACEMENT_3D ( 'NONE', #254, #253, #95 ) ;
#286 = COORDINATED_UNIVERSAL_TIME_OFFSET ( 8, 0, .AHEAD. ) ;
#287 = LINE ( 'NONE', #263, #77 ) ;
#288 = EDGE_CURVE ( 'NONE', #18, #230, #96, .T. ) ;
#289 = DIRECTION ( 'NONE',  ( -1.000000000000000000, -0.000000000000000000, -0.000000000000000000 ) ) ;
#290 = DIRECTION ( 'NONE',  ( -1.000000000000000000, -0.000000000000000000, -0.000000000000000000 ) ) ;
#291 = AXIS2_PLACEMENT_3D ( 'NONE', #250, #36, #149 ) ;
#292 = CARTESIAN_POINT ( 'NONE',  ( -1.614212418857619014, 0.000000000000000000, 0.000000000000000000 ) ) ;
#293 = CARTESIAN_POINT ( 'NONE',  ( -3.000000000000000000, 0.000000000000000000, 12.69999999999999929 ) ) ;
#294 = CARTESIAN_POINT ( 'NONE',  ( -2.500000000000000444, 0.000000000000000000, 0.000000000000000000 ) ) ;
#295 = PERSON_AND_ORGANIZATION ( #156, #276 ) ;
#296 = DIRECTION ( 'NONE',  ( -1.000000000000000000, -0.000000000000000000, -0.000000000000000000 ) ) ;
#297 = DIRECTION ( 'NONE',  ( -1.000000000000000000, -0.000000000000000000, -0.000000000000000000 ) ) ;
#298 = CIRCLE ( 'NONE', #206, 12.69999999999999929 ) ;
#299 = EDGE_CURVE ( 'NONE', #306, #130, #184, .T. ) ;
#300 = EDGE_LOOP ( 'NONE', ( #43, #182 ) ) ;
#301 = ORIENTED_EDGE ( 'NONE', *, *, #65, .T. ) ;
#302 = VERTEX_POINT ( 'NONE', #277 ) ;
#303 = AXIS2_PLACEMENT_3D ( 'NONE', #204, #119, #104 ) ;
#304 = EDGE_LOOP ( 'NONE', ( #183, #186, #326, #94 ) ) ;
#305 = EDGE_CURVE ( 'NONE', #230, #18, #146, .T. ) ;
#306 = VERTEX_POINT ( 'NONE', #203 ) ;
#307 = ORIENTED_EDGE ( 'NONE', *, *, #135, .T. ) ;
#308 = LINE ( 'NONE', #75, #115 ) ;
#309 = APPROVAL ( #165, 'UNSPECIFIED' ) ;
#310 = PERSON_AND_ORGANIZATION ( #156, #276 ) ;
#311 = AXIS2_PLACEMENT_3D ( 'NONE', #264, #258, #19 ) ;
#312 = VERTEX_POINT ( 'NONE', #161 ) ;
#313 = DIRECTION ( 'NONE',  ( 0.000000000000000000, 0.000000000000000000, 1.000000000000000000 ) ) ;
#314 = COORDINATED_UNIVERSAL_TIME_OFFSET ( 8, 0, .AHEAD. ) ;
#315 = FACE_OUTER_BOUND ( 'NONE', #106, .T. ) ;
#316 = CIRCLE ( 'NONE', #111, 10.00000000000000000 ) ;
#317 = AXIS2_PLACEMENT_3D ( 'NONE', #238, #332, #166 ) ;
#318 = LOCAL_TIME ( 17, 15, 44.00000000000000000, #314 ) ;
#319 = DIRECTION ( 'NONE',  ( -1.000000000000000000, -0.000000000000000000, -0.000000000000000000 ) ) ;
#320 = DIRECTION ( 'NONE',  ( -1.000000000000000000, -0.000000000000000000, -0.000000000000000000 ) ) ;
#321 = CALENDAR_DATE ( 2020, 22, 12 ) ;
#322 = CARTESIAN_POINT ( 'NONE',  ( -1.614212418857619014, 0.000000000000000000, 10.00000000000000000 ) ) ;
#323 = CIRCLE ( 'NONE', #121, 10.00000000000000000 ) ;
#324 = ADVANCED_FACE ( 'NONE', ( #10, #205 ), #12, .F. ) ;
#325 = MECHANICAL_CONTEXT ( 'NONE', #34, 'mechanical' ) ;
#326 = ORIENTED_EDGE ( 'NONE', *, *, #39, .T. ) ;
#327 = ORIENTED_EDGE ( 'NONE', *, *, #305, .T. ) ;
#328 = CARTESIAN_POINT ( 'NONE',  ( 2.500000000000000888, 0.000000000000000000, 0.000000000000000000 ) ) ;
#329 = ORIENTED_EDGE ( 'NONE', *, *, #63, .T. ) ;
#330 = EDGE_CURVE ( 'NONE', #207, #279, #123, .T. ) ;
#331 = AXIS2_PLACEMENT_3D ( 'NONE', #172, #320, #313 ) ;
#332 = DIRECTION ( 'NONE',  ( -1.000000000000000000, -0.000000000000000000, -0.000000000000000000 ) ) ;
#333 = EDGE_LOOP ( 'NONE', ( #192, #256 ) ) ;
#334 = PLANE ( 'NONE',  #311 ) ;
#335 = PERSON_AND_ORGANIZATION ( #156, #276 ) ;
ENDSEC;
END-ISO-10303-21;
